ISO-10303-21;
HEADER;
/* Generated by software containing ST-Developer
 * from STEP Tools, Inc. (www.steptools.com) 
 */

FILE_DESCRIPTION(
/* description */ (''),
/* implementation_level */ '2;1');

FILE_NAME(
/* name */ 'Fresnel.step',
/* time_stamp */ '2025-10-26T17:35:00+01:00',
/* author */ (''),
/* organization */ (''),
/* preprocessor_version */ 'ST-DEVELOPER v20.1',
/* originating_system */ 'Autodesk Translation Framework v14.17.0.0',
/* authorisation */ '');

FILE_SCHEMA (('AUTOMOTIVE_DESIGN { 1 0 10303 214 3 1 1 }'));
ENDSEC;

DATA;
#10=MECHANICAL_DESIGN_GEOMETRIC_PRESENTATION_REPRESENTATION('',(#13),#267);
#11=SHAPE_REPRESENTATION_RELATIONSHIP('SRR','None',#274,#12);
#12=ADVANCED_BREP_SHAPE_REPRESENTATION('',(#14),#266);
#13=STYLED_ITEM('',(#284),#14);
#14=MANIFOLD_SOLID_BREP('Fresnel',#155);
#15=LINE('',#233,#29);
#16=LINE('',#237,#30);
#17=LINE('',#239,#31);
#18=LINE('',#241,#32);
#19=LINE('',#242,#33);
#20=LINE('',#245,#34);
#21=LINE('',#249,#35);
#22=LINE('',#251,#36);
#23=LINE('',#252,#37);
#24=LINE('',#255,#38);
#25=LINE('',#256,#39);
#26=LINE('',#259,#40);
#27=LINE('',#260,#41);
#28=LINE('',#262,#42);
#29=VECTOR('',#194,11.9844856071611);
#30=VECTOR('',#197,10.);
#31=VECTOR('',#198,10.);
#32=VECTOR('',#199,10.);
#33=VECTOR('',#200,10.);
#34=VECTOR('',#203,12.5);
#35=VECTOR('',#208,10.);
#36=VECTOR('',#209,10.);
#37=VECTOR('',#210,10.);
#38=VECTOR('',#213,10.);
#39=VECTOR('',#214,10.);
#40=VECTOR('',#217,10.);
#41=VECTOR('',#218,10.);
#42=VECTOR('',#221,10.);
#43=CYLINDRICAL_SURFACE('',#172,11.9844856071611);
#44=CYLINDRICAL_SURFACE('',#175,12.75);
#45=FACE_BOUND('',#58,.T.);
#46=FACE_BOUND('',#61,.T.);
#47=FACE_BOUND('',#68,.T.);
#48=FACE_OUTER_BOUND('',#57,.T.);
#49=FACE_OUTER_BOUND('',#59,.T.);
#50=FACE_OUTER_BOUND('',#60,.T.);
#51=FACE_OUTER_BOUND('',#62,.T.);
#52=FACE_OUTER_BOUND('',#63,.T.);
#53=FACE_OUTER_BOUND('',#64,.T.);
#54=FACE_OUTER_BOUND('',#65,.T.);
#55=FACE_OUTER_BOUND('',#66,.T.);
#56=FACE_OUTER_BOUND('',#67,.T.);
#57=EDGE_LOOP('',(#103));
#58=EDGE_LOOP('',(#104));
#59=EDGE_LOOP('',(#105,#106,#107,#108));
#60=EDGE_LOOP('',(#109,#110,#111,#112));
#61=EDGE_LOOP('',(#113));
#62=EDGE_LOOP('',(#114,#115,#116,#117));
#63=EDGE_LOOP('',(#118,#119,#120,#121));
#64=EDGE_LOOP('',(#122,#123,#124,#125));
#65=EDGE_LOOP('',(#126,#127,#128,#129));
#66=EDGE_LOOP('',(#130,#131,#132,#133));
#67=EDGE_LOOP('',(#134,#135,#136,#137));
#68=EDGE_LOOP('',(#138));
#69=CIRCLE('',#170,12.75);
#70=CIRCLE('',#171,11.9844856071611);
#71=CIRCLE('',#173,11.9844856071611);
#72=CIRCLE('',#176,12.75);
#73=VERTEX_POINT('',#226);
#74=VERTEX_POINT('',#228);
#75=VERTEX_POINT('',#231);
#76=VERTEX_POINT('',#235);
#77=VERTEX_POINT('',#236);
#78=VERTEX_POINT('',#238);
#79=VERTEX_POINT('',#240);
#80=VERTEX_POINT('',#244);
#81=VERTEX_POINT('',#248);
#82=VERTEX_POINT('',#250);
#83=VERTEX_POINT('',#254);
#84=VERTEX_POINT('',#258);
#85=EDGE_CURVE('',#73,#73,#69,.F.);
#86=EDGE_CURVE('',#74,#74,#70,.T.);
#87=EDGE_CURVE('',#75,#75,#71,.T.);
#88=EDGE_CURVE('',#75,#74,#15,.T.);
#89=EDGE_CURVE('',#76,#77,#16,.T.);
#90=EDGE_CURVE('',#77,#78,#17,.T.);
#91=EDGE_CURVE('',#78,#79,#18,.T.);
#92=EDGE_CURVE('',#79,#76,#19,.T.);
#93=EDGE_CURVE('',#73,#80,#20,.T.);
#94=EDGE_CURVE('',#80,#80,#72,.T.);
#95=EDGE_CURVE('',#81,#78,#21,.T.);
#96=EDGE_CURVE('',#82,#81,#22,.T.);
#97=EDGE_CURVE('',#79,#82,#23,.T.);
#98=EDGE_CURVE('',#83,#82,#24,.T.);
#99=EDGE_CURVE('',#76,#83,#25,.T.);
#100=EDGE_CURVE('',#84,#83,#26,.T.);
#101=EDGE_CURVE('',#77,#84,#27,.T.);
#102=EDGE_CURVE('',#81,#84,#28,.T.);
#103=ORIENTED_EDGE('',*,*,#85,.T.);
#104=ORIENTED_EDGE('',*,*,#86,.F.);
#105=ORIENTED_EDGE('',*,*,#87,.F.);
#106=ORIENTED_EDGE('',*,*,#88,.T.);
#107=ORIENTED_EDGE('',*,*,#86,.T.);
#108=ORIENTED_EDGE('',*,*,#88,.F.);
#109=ORIENTED_EDGE('',*,*,#89,.T.);
#110=ORIENTED_EDGE('',*,*,#90,.T.);
#111=ORIENTED_EDGE('',*,*,#91,.T.);
#112=ORIENTED_EDGE('',*,*,#92,.T.);
#113=ORIENTED_EDGE('',*,*,#87,.T.);
#114=ORIENTED_EDGE('',*,*,#85,.F.);
#115=ORIENTED_EDGE('',*,*,#93,.T.);
#116=ORIENTED_EDGE('',*,*,#94,.F.);
#117=ORIENTED_EDGE('',*,*,#93,.F.);
#118=ORIENTED_EDGE('',*,*,#95,.F.);
#119=ORIENTED_EDGE('',*,*,#96,.F.);
#120=ORIENTED_EDGE('',*,*,#97,.F.);
#121=ORIENTED_EDGE('',*,*,#91,.F.);
#122=ORIENTED_EDGE('',*,*,#97,.T.);
#123=ORIENTED_EDGE('',*,*,#98,.F.);
#124=ORIENTED_EDGE('',*,*,#99,.F.);
#125=ORIENTED_EDGE('',*,*,#92,.F.);
#126=ORIENTED_EDGE('',*,*,#99,.T.);
#127=ORIENTED_EDGE('',*,*,#100,.F.);
#128=ORIENTED_EDGE('',*,*,#101,.F.);
#129=ORIENTED_EDGE('',*,*,#89,.F.);
#130=ORIENTED_EDGE('',*,*,#101,.T.);
#131=ORIENTED_EDGE('',*,*,#102,.F.);
#132=ORIENTED_EDGE('',*,*,#95,.T.);
#133=ORIENTED_EDGE('',*,*,#90,.F.);
#134=ORIENTED_EDGE('',*,*,#102,.T.);
#135=ORIENTED_EDGE('',*,*,#100,.T.);
#136=ORIENTED_EDGE('',*,*,#98,.T.);
#137=ORIENTED_EDGE('',*,*,#96,.T.);
#138=ORIENTED_EDGE('',*,*,#94,.T.);
#139=PLANE('',#169);
#140=PLANE('',#174);
#141=PLANE('',#177);
#142=PLANE('',#178);
#143=PLANE('',#179);
#144=PLANE('',#180);
#145=PLANE('',#181);
#146=ADVANCED_FACE('',(#48,#45),#139,.F.);
#147=ADVANCED_FACE('',(#49),#43,.F.);
#148=ADVANCED_FACE('',(#50,#46),#140,.T.);
#149=ADVANCED_FACE('',(#51),#44,.F.);
#150=ADVANCED_FACE('',(#52),#141,.T.);
#151=ADVANCED_FACE('',(#53),#142,.T.);
#152=ADVANCED_FACE('',(#54),#143,.T.);
#153=ADVANCED_FACE('',(#55),#144,.T.);
#154=ADVANCED_FACE('',(#56,#47),#145,.T.);
#155=CLOSED_SHELL('',(#146,#147,#148,#149,#150,#151,#152,#153,#154));
#156=DERIVED_UNIT_ELEMENT(#158,1.);
#157=DERIVED_UNIT_ELEMENT(#269,-3.);
#158=(
MASS_UNIT()
NAMED_UNIT(*)
SI_UNIT(.KILO.,.GRAM.)
);
#159=DERIVED_UNIT((#156,#157));
#160=MEASURE_REPRESENTATION_ITEM('density measure',
POSITIVE_RATIO_MEASURE(7850.),#159);
#161=PROPERTY_DEFINITION_REPRESENTATION(#166,#163);
#162=PROPERTY_DEFINITION_REPRESENTATION(#167,#164);
#163=REPRESENTATION('material name',(#165),#266);
#164=REPRESENTATION('density',(#160),#266);
#165=DESCRIPTIVE_REPRESENTATION_ITEM('Acier','Acier');
#166=PROPERTY_DEFINITION('material property','material name',#276);
#167=PROPERTY_DEFINITION('material property','density of part',#276);
#168=AXIS2_PLACEMENT_3D('',#224,#182,#183);
#169=AXIS2_PLACEMENT_3D('',#225,#184,#185);
#170=AXIS2_PLACEMENT_3D('',#227,#186,#187);
#171=AXIS2_PLACEMENT_3D('',#229,#188,#189);
#172=AXIS2_PLACEMENT_3D('',#230,#190,#191);
#173=AXIS2_PLACEMENT_3D('',#232,#192,#193);
#174=AXIS2_PLACEMENT_3D('',#234,#195,#196);
#175=AXIS2_PLACEMENT_3D('',#243,#201,#202);
#176=AXIS2_PLACEMENT_3D('',#246,#204,#205);
#177=AXIS2_PLACEMENT_3D('',#247,#206,#207);
#178=AXIS2_PLACEMENT_3D('',#253,#211,#212);
#179=AXIS2_PLACEMENT_3D('',#257,#215,#216);
#180=AXIS2_PLACEMENT_3D('',#261,#219,#220);
#181=AXIS2_PLACEMENT_3D('',#263,#222,#223);
#182=DIRECTION('axis',(0.,0.,1.));
#183=DIRECTION('refdir',(1.,0.,0.));
#184=DIRECTION('center_axis',(0.,0.,-1.));
#185=DIRECTION('ref_axis',(1.,0.,0.));
#186=DIRECTION('center_axis',(0.,0.,-1.));
#187=DIRECTION('ref_axis',(1.,0.,0.));
#188=DIRECTION('center_axis',(0.,0.,1.));
#189=DIRECTION('ref_axis',(1.,0.,0.));
#190=DIRECTION('center_axis',(0.,0.,-1.));
#191=DIRECTION('ref_axis',(1.,0.,0.));
#192=DIRECTION('center_axis',(0.,0.,1.));
#193=DIRECTION('ref_axis',(1.,0.,0.));
#194=DIRECTION('',(0.,0.,1.));
#195=DIRECTION('center_axis',(0.,0.,-1.));
#196=DIRECTION('ref_axis',(1.,0.,0.));
#197=DIRECTION('',(0.,-1.,0.));
#198=DIRECTION('',(-1.,0.,0.));
#199=DIRECTION('',(0.,1.,0.));
#200=DIRECTION('',(1.,0.,0.));
#201=DIRECTION('center_axis',(0.,0.,1.));
#202=DIRECTION('ref_axis',(1.,0.,0.));
#203=DIRECTION('',(0.,0.,1.));
#204=DIRECTION('center_axis',(0.,0.,-1.));
#205=DIRECTION('ref_axis',(1.,0.,0.));
#206=DIRECTION('center_axis',(-1.,0.,0.));
#207=DIRECTION('ref_axis',(0.,-1.,0.));
#208=DIRECTION('',(0.,0.,-1.));
#209=DIRECTION('',(0.,-1.,0.));
#210=DIRECTION('',(0.,0.,1.));
#211=DIRECTION('center_axis',(0.,1.,0.));
#212=DIRECTION('ref_axis',(-1.,0.,0.));
#213=DIRECTION('',(-1.,0.,0.));
#214=DIRECTION('',(0.,0.,1.));
#215=DIRECTION('center_axis',(1.,0.,0.));
#216=DIRECTION('ref_axis',(0.,1.,0.));
#217=DIRECTION('',(0.,1.,0.));
#218=DIRECTION('',(0.,0.,1.));
#219=DIRECTION('center_axis',(0.,-1.,0.));
#220=DIRECTION('ref_axis',(1.,0.,0.));
#221=DIRECTION('',(1.,0.,0.));
#222=DIRECTION('center_axis',(0.,0.,1.));
#223=DIRECTION('ref_axis',(1.,0.,0.));
#224=CARTESIAN_POINT('',(0.,0.,0.));
#225=CARTESIAN_POINT('Origin',(15.,-15.,0.));
#226=CARTESIAN_POINT('',(2.31295872606453,-15.,0.));
#227=CARTESIAN_POINT('Origin',(15.0629587260645,-15.,0.));
#228=CARTESIAN_POINT('',(3.0784731189034,-15.,0.));
#229=CARTESIAN_POINT('Origin',(15.0629587260645,-15.,0.));
#230=CARTESIAN_POINT('Origin',(15.0629587260645,-15.,0.));
#231=CARTESIAN_POINT('',(3.0784731189034,-15.,-0.2));
#232=CARTESIAN_POINT('Origin',(15.0629587260645,-15.,-0.2));
#233=CARTESIAN_POINT('',(3.0784731189034,-15.,0.));
#234=CARTESIAN_POINT('Origin',(15.,-15.,-0.2));
#235=CARTESIAN_POINT('',(30.,0.,-0.2));
#236=CARTESIAN_POINT('',(30.,-30.,-0.2));
#237=CARTESIAN_POINT('',(30.,0.,-0.2));
#238=CARTESIAN_POINT('',(0.,-30.,-0.2));
#239=CARTESIAN_POINT('',(30.,-30.,-0.2));
#240=CARTESIAN_POINT('',(0.,0.,-0.2));
#241=CARTESIAN_POINT('',(0.,-30.,-0.2));
#242=CARTESIAN_POINT('',(0.,0.,-0.2));
#243=CARTESIAN_POINT('Origin',(15.0629587260645,-15.,0.743359050774445));
#244=CARTESIAN_POINT('',(2.31295872606453,-15.,1.5));
#245=CARTESIAN_POINT('',(2.31295872606453,-15.,0.743359050774445));
#246=CARTESIAN_POINT('Origin',(15.0629587260645,-15.,1.5));
#247=CARTESIAN_POINT('Origin',(0.,0.,0.));
#248=CARTESIAN_POINT('',(0.,-30.,1.5));
#249=CARTESIAN_POINT('',(0.,-30.,0.));
#250=CARTESIAN_POINT('',(0.,0.,1.5));
#251=CARTESIAN_POINT('',(0.,-30.,1.5));
#252=CARTESIAN_POINT('',(0.,0.,0.));
#253=CARTESIAN_POINT('Origin',(30.,0.,0.));
#254=CARTESIAN_POINT('',(30.,0.,1.5));
#255=CARTESIAN_POINT('',(0.,0.,1.5));
#256=CARTESIAN_POINT('',(30.,0.,0.));
#257=CARTESIAN_POINT('Origin',(30.,-30.,0.));
#258=CARTESIAN_POINT('',(30.,-30.,1.5));
#259=CARTESIAN_POINT('',(30.,0.,1.5));
#260=CARTESIAN_POINT('',(30.,-30.,0.));
#261=CARTESIAN_POINT('Origin',(0.,-30.,0.));
#262=CARTESIAN_POINT('',(30.,-30.,1.5));
#263=CARTESIAN_POINT('Origin',(15.,-15.,1.5));
#264=UNCERTAINTY_MEASURE_WITH_UNIT(LENGTH_MEASURE(0.01),#268,
'DISTANCE_ACCURACY_VALUE',
'Maximum model space distance between geometric entities at asserted c
onnectivities');
#265=UNCERTAINTY_MEASURE_WITH_UNIT(LENGTH_MEASURE(0.01),#268,
'DISTANCE_ACCURACY_VALUE',
'Maximum model space distance between geometric entities at asserted c
onnectivities');
#266=(
GEOMETRIC_REPRESENTATION_CONTEXT(3)
GLOBAL_UNCERTAINTY_ASSIGNED_CONTEXT((#264))
GLOBAL_UNIT_ASSIGNED_CONTEXT((#268,#270,#271))
REPRESENTATION_CONTEXT('','3D')
);
#267=(
GEOMETRIC_REPRESENTATION_CONTEXT(3)
GLOBAL_UNCERTAINTY_ASSIGNED_CONTEXT((#265))
GLOBAL_UNIT_ASSIGNED_CONTEXT((#268,#270,#271))
REPRESENTATION_CONTEXT('','3D')
);
#268=(
LENGTH_UNIT()
NAMED_UNIT(*)
SI_UNIT(.MILLI.,.METRE.)
);
#269=(
LENGTH_UNIT()
NAMED_UNIT(*)
SI_UNIT($,.METRE.)
);
#270=(
NAMED_UNIT(*)
PLANE_ANGLE_UNIT()
SI_UNIT($,.RADIAN.)
);
#271=(
NAMED_UNIT(*)
SI_UNIT($,.STERADIAN.)
SOLID_ANGLE_UNIT()
);
#272=SHAPE_DEFINITION_REPRESENTATION(#273,#274);
#273=PRODUCT_DEFINITION_SHAPE('',$,#276);
#274=SHAPE_REPRESENTATION('',(#168),#266);
#275=PRODUCT_DEFINITION_CONTEXT('part definition',#280,'design');
#276=PRODUCT_DEFINITION('Fresnel','Fresnel',#277,#275);
#277=PRODUCT_DEFINITION_FORMATION('',$,#282);
#278=PRODUCT_RELATED_PRODUCT_CATEGORY('Fresnel','Fresnel',(#282));
#279=APPLICATION_PROTOCOL_DEFINITION('international standard',
'automotive_design',2009,#280);
#280=APPLICATION_CONTEXT(
'Core Data for Automotive Mechanical Design Process');
#281=PRODUCT_CONTEXT('part definition',#280,'mechanical');
#282=PRODUCT('Fresnel','Fresnel',$,(#281));
#283=PRESENTATION_STYLE_ASSIGNMENT((#285));
#284=PRESENTATION_STYLE_ASSIGNMENT((#286));
#285=SURFACE_STYLE_USAGE(.BOTH.,#287);
#286=SURFACE_STYLE_USAGE(.BOTH.,#288);
#287=SURFACE_SIDE_STYLE('',(#289));
#288=SURFACE_SIDE_STYLE('',(#290));
#289=SURFACE_STYLE_FILL_AREA(#291);
#290=SURFACE_STYLE_FILL_AREA(#292);
#291=FILL_AREA_STYLE('Acier - Satin\X\E9',(#293));
#292=FILL_AREA_STYLE('Verre (transparent)',(#294));
#293=FILL_AREA_STYLE_COLOUR('Acier - Satin\X\E9',#295);
#294=FILL_AREA_STYLE_COLOUR('Verre (transparent)',#296);
#295=COLOUR_RGB('Acier - Satin\X\E9',0.627450980392157,0.627450980392157,
0.627450980392157);
#296=COLOUR_RGB('Verre (transparent)',0.964705882352941,0.964705882352941,
0.952941176470588);
ENDSEC;
END-ISO-10303-21;
