ISO-10303-21;
HEADER;
/* Generated by software containing ST-Developer
 * from STEP Tools, Inc. (www.steptools.com) 
 */

FILE_DESCRIPTION(
/* description */ (''),
/* implementation_level */ '2;1');

FILE_NAME(
/* name */ 'Spacer.step',
/* time_stamp */ '2025-11-09T10:27:12+01:00',
/* author */ (''),
/* organization */ (''),
/* preprocessor_version */ 'ST-DEVELOPER v20.1',
/* originating_system */ 'Autodesk Translation Framework v14.17.0.0',
/* authorisation */ '');

FILE_SCHEMA (('AUTOMOTIVE_DESIGN { 1 0 10303 214 3 1 1 }'));
ENDSEC;

DATA;
#10=MECHANICAL_DESIGN_GEOMETRIC_PRESENTATION_REPRESENTATION('',(#13),#255);
#11=SHAPE_REPRESENTATION_RELATIONSHIP('SRR','None',#262,#12);
#12=ADVANCED_BREP_SHAPE_REPRESENTATION('',(#14),#254);
#13=STYLED_ITEM('',(#271),#14);
#14=MANIFOLD_SOLID_BREP('Corps1',#143);
#15=PLANE('',#160);
#16=PLANE('',#164);
#17=PLANE('',#168);
#18=PLANE('',#169);
#19=PLANE('',#170);
#20=FACE_OUTER_BOUND('',#28,.T.);
#21=FACE_OUTER_BOUND('',#29,.T.);
#22=FACE_OUTER_BOUND('',#30,.T.);
#23=FACE_OUTER_BOUND('',#31,.T.);
#24=FACE_OUTER_BOUND('',#32,.T.);
#25=FACE_OUTER_BOUND('',#33,.T.);
#26=FACE_OUTER_BOUND('',#34,.T.);
#27=FACE_OUTER_BOUND('',#35,.T.);
#28=EDGE_LOOP('',(#96,#97,#98,#99));
#29=EDGE_LOOP('',(#100,#101,#102,#103));
#30=EDGE_LOOP('',(#104,#105,#106,#107));
#31=EDGE_LOOP('',(#108,#109,#110,#111));
#32=EDGE_LOOP('',(#112,#113,#114,#115));
#33=EDGE_LOOP('',(#116,#117,#118,#119));
#34=EDGE_LOOP('',(#120,#121,#122,#123,#124,#125));
#35=EDGE_LOOP('',(#126,#127,#128,#129,#130,#131));
#36=LINE('',#219,#48);
#37=LINE('',#222,#49);
#38=LINE('',#225,#50);
#39=LINE('',#227,#51);
#40=LINE('',#228,#52);
#41=LINE('',#234,#53);
#42=LINE('',#237,#54);
#43=LINE('',#239,#55);
#44=LINE('',#240,#56);
#45=LINE('',#246,#57);
#46=LINE('',#248,#58);
#47=LINE('',#249,#59);
#48=VECTOR('',#177,10.);
#49=VECTOR('',#180,10.);
#50=VECTOR('',#183,10.);
#51=VECTOR('',#184,10.);
#52=VECTOR('',#185,10.);
#53=VECTOR('',#192,10.);
#54=VECTOR('',#195,10.);
#55=VECTOR('',#196,10.);
#56=VECTOR('',#197,10.);
#57=VECTOR('',#204,10.);
#58=VECTOR('',#207,10.);
#59=VECTOR('',#208,10.);
#60=CIRCLE('',#158,1.5);
#61=CIRCLE('',#159,1.5);
#62=CIRCLE('',#162,4.25);
#63=CIRCLE('',#163,4.25);
#64=CIRCLE('',#166,4.25);
#65=CIRCLE('',#167,4.25);
#66=VERTEX_POINT('',#215);
#67=VERTEX_POINT('',#216);
#68=VERTEX_POINT('',#218);
#69=VERTEX_POINT('',#220);
#70=VERTEX_POINT('',#224);
#71=VERTEX_POINT('',#226);
#72=VERTEX_POINT('',#230);
#73=VERTEX_POINT('',#232);
#74=VERTEX_POINT('',#236);
#75=VERTEX_POINT('',#238);
#76=VERTEX_POINT('',#242);
#77=VERTEX_POINT('',#244);
#78=EDGE_CURVE('',#66,#67,#60,.T.);
#79=EDGE_CURVE('',#67,#68,#36,.T.);
#80=EDGE_CURVE('',#69,#68,#61,.T.);
#81=EDGE_CURVE('',#66,#69,#37,.T.);
#82=EDGE_CURVE('',#66,#70,#38,.T.);
#83=EDGE_CURVE('',#71,#69,#39,.T.);
#84=EDGE_CURVE('',#70,#71,#40,.T.);
#85=EDGE_CURVE('',#70,#72,#62,.T.);
#86=EDGE_CURVE('',#73,#71,#63,.T.);
#87=EDGE_CURVE('',#72,#73,#41,.T.);
#88=EDGE_CURVE('',#74,#72,#42,.T.);
#89=EDGE_CURVE('',#75,#73,#43,.T.);
#90=EDGE_CURVE('',#74,#75,#44,.T.);
#91=EDGE_CURVE('',#74,#76,#64,.T.);
#92=EDGE_CURVE('',#77,#75,#65,.T.);
#93=EDGE_CURVE('',#76,#77,#45,.T.);
#94=EDGE_CURVE('',#76,#67,#46,.T.);
#95=EDGE_CURVE('',#68,#77,#47,.T.);
#96=ORIENTED_EDGE('',*,*,#78,.T.);
#97=ORIENTED_EDGE('',*,*,#79,.T.);
#98=ORIENTED_EDGE('',*,*,#80,.F.);
#99=ORIENTED_EDGE('',*,*,#81,.F.);
#100=ORIENTED_EDGE('',*,*,#82,.F.);
#101=ORIENTED_EDGE('',*,*,#81,.T.);
#102=ORIENTED_EDGE('',*,*,#83,.F.);
#103=ORIENTED_EDGE('',*,*,#84,.F.);
#104=ORIENTED_EDGE('',*,*,#85,.F.);
#105=ORIENTED_EDGE('',*,*,#84,.T.);
#106=ORIENTED_EDGE('',*,*,#86,.F.);
#107=ORIENTED_EDGE('',*,*,#87,.F.);
#108=ORIENTED_EDGE('',*,*,#88,.T.);
#109=ORIENTED_EDGE('',*,*,#87,.T.);
#110=ORIENTED_EDGE('',*,*,#89,.F.);
#111=ORIENTED_EDGE('',*,*,#90,.F.);
#112=ORIENTED_EDGE('',*,*,#91,.F.);
#113=ORIENTED_EDGE('',*,*,#90,.T.);
#114=ORIENTED_EDGE('',*,*,#92,.F.);
#115=ORIENTED_EDGE('',*,*,#93,.F.);
#116=ORIENTED_EDGE('',*,*,#94,.F.);
#117=ORIENTED_EDGE('',*,*,#93,.T.);
#118=ORIENTED_EDGE('',*,*,#95,.F.);
#119=ORIENTED_EDGE('',*,*,#79,.F.);
#120=ORIENTED_EDGE('',*,*,#95,.T.);
#121=ORIENTED_EDGE('',*,*,#92,.T.);
#122=ORIENTED_EDGE('',*,*,#89,.T.);
#123=ORIENTED_EDGE('',*,*,#86,.T.);
#124=ORIENTED_EDGE('',*,*,#83,.T.);
#125=ORIENTED_EDGE('',*,*,#80,.T.);
#126=ORIENTED_EDGE('',*,*,#94,.T.);
#127=ORIENTED_EDGE('',*,*,#78,.F.);
#128=ORIENTED_EDGE('',*,*,#82,.T.);
#129=ORIENTED_EDGE('',*,*,#85,.T.);
#130=ORIENTED_EDGE('',*,*,#88,.F.);
#131=ORIENTED_EDGE('',*,*,#91,.T.);
#132=CYLINDRICAL_SURFACE('',#157,1.5);
#133=CYLINDRICAL_SURFACE('',#161,4.25);
#134=CYLINDRICAL_SURFACE('',#165,4.25);
#135=ADVANCED_FACE('',(#20),#132,.F.);
#136=ADVANCED_FACE('',(#21),#15,.T.);
#137=ADVANCED_FACE('',(#22),#133,.T.);
#138=ADVANCED_FACE('',(#23),#16,.T.);
#139=ADVANCED_FACE('',(#24),#134,.T.);
#140=ADVANCED_FACE('',(#25),#17,.T.);
#141=ADVANCED_FACE('',(#26),#18,.F.);
#142=ADVANCED_FACE('',(#27),#19,.T.);
#143=CLOSED_SHELL('',(#135,#136,#137,#138,#139,#140,#141,#142));
#144=DERIVED_UNIT_ELEMENT(#146,1.);
#145=DERIVED_UNIT_ELEMENT(#257,-3.);
#146=(
MASS_UNIT()
NAMED_UNIT(*)
SI_UNIT(.KILO.,.GRAM.)
);
#147=DERIVED_UNIT((#144,#145));
#148=MEASURE_REPRESENTATION_ITEM('density measure',
POSITIVE_RATIO_MEASURE(7850.),#147);
#149=PROPERTY_DEFINITION_REPRESENTATION(#154,#151);
#150=PROPERTY_DEFINITION_REPRESENTATION(#155,#152);
#151=REPRESENTATION('material name',(#153),#254);
#152=REPRESENTATION('density',(#148),#254);
#153=DESCRIPTIVE_REPRESENTATION_ITEM('Acier','Acier');
#154=PROPERTY_DEFINITION('material property','material name',#264);
#155=PROPERTY_DEFINITION('material property','density of part',#264);
#156=AXIS2_PLACEMENT_3D('',#213,#171,#172);
#157=AXIS2_PLACEMENT_3D('',#214,#173,#174);
#158=AXIS2_PLACEMENT_3D('',#217,#175,#176);
#159=AXIS2_PLACEMENT_3D('',#221,#178,#179);
#160=AXIS2_PLACEMENT_3D('',#223,#181,#182);
#161=AXIS2_PLACEMENT_3D('',#229,#186,#187);
#162=AXIS2_PLACEMENT_3D('',#231,#188,#189);
#163=AXIS2_PLACEMENT_3D('',#233,#190,#191);
#164=AXIS2_PLACEMENT_3D('',#235,#193,#194);
#165=AXIS2_PLACEMENT_3D('',#241,#198,#199);
#166=AXIS2_PLACEMENT_3D('',#243,#200,#201);
#167=AXIS2_PLACEMENT_3D('',#245,#202,#203);
#168=AXIS2_PLACEMENT_3D('',#247,#205,#206);
#169=AXIS2_PLACEMENT_3D('',#250,#209,#210);
#170=AXIS2_PLACEMENT_3D('',#251,#211,#212);
#171=DIRECTION('axis',(0.,0.,1.));
#172=DIRECTION('refdir',(1.,0.,0.));
#173=DIRECTION('center_axis',(0.,0.,-1.));
#174=DIRECTION('ref_axis',(1.,0.,0.));
#175=DIRECTION('center_axis',(0.,0.,1.));
#176=DIRECTION('ref_axis',(1.,0.,0.));
#177=DIRECTION('',(0.,0.,-1.));
#178=DIRECTION('center_axis',(0.,0.,1.));
#179=DIRECTION('ref_axis',(1.,0.,0.));
#180=DIRECTION('',(0.,0.,-1.));
#181=DIRECTION('center_axis',(0.,1.,0.));
#182=DIRECTION('ref_axis',(1.,0.,0.));
#183=DIRECTION('',(-1.,0.,0.));
#184=DIRECTION('',(1.,0.,0.));
#185=DIRECTION('',(0.,0.,-1.));
#186=DIRECTION('center_axis',(0.,0.,-1.));
#187=DIRECTION('ref_axis',(1.,0.,0.));
#188=DIRECTION('center_axis',(0.,0.,1.));
#189=DIRECTION('ref_axis',(1.,0.,0.));
#190=DIRECTION('center_axis',(0.,0.,-1.));
#191=DIRECTION('ref_axis',(1.,0.,0.));
#192=DIRECTION('',(0.,0.,-1.));
#193=DIRECTION('center_axis',(1.,0.,0.));
#194=DIRECTION('ref_axis',(0.,-1.,0.));
#195=DIRECTION('',(0.,-1.,0.));
#196=DIRECTION('',(0.,-1.,0.));
#197=DIRECTION('',(0.,0.,-1.));
#198=DIRECTION('center_axis',(0.,0.,-1.));
#199=DIRECTION('ref_axis',(1.,0.,0.));
#200=DIRECTION('center_axis',(0.,0.,1.));
#201=DIRECTION('ref_axis',(1.,0.,0.));
#202=DIRECTION('center_axis',(0.,0.,-1.));
#203=DIRECTION('ref_axis',(1.,0.,0.));
#204=DIRECTION('',(0.,0.,-1.));
#205=DIRECTION('center_axis',(0.,-1.,0.));
#206=DIRECTION('ref_axis',(-1.,0.,0.));
#207=DIRECTION('',(1.,0.,0.));
#208=DIRECTION('',(-1.,0.,0.));
#209=DIRECTION('center_axis',(0.,0.,1.));
#210=DIRECTION('ref_axis',(1.,0.,0.));
#211=DIRECTION('center_axis',(0.,0.,1.));
#212=DIRECTION('ref_axis',(1.,0.,0.));
#213=CARTESIAN_POINT('',(0.,0.,0.));
#214=CARTESIAN_POINT('Origin',(-10.7563632612178,-166.870332917818,-1.));
#215=CARTESIAN_POINT('',(-10.8782752613704,-168.365370530796,-1.));
#216=CARTESIAN_POINT('',(-10.8782752613695,-165.37529530484,-1.));
#217=CARTESIAN_POINT('Origin',(-10.7563632612178,-166.870332917818,-1.));
#218=CARTESIAN_POINT('',(-10.8782752613695,-165.37529530484,-11.));
#219=CARTESIAN_POINT('',(-10.8782752613695,-165.37529530484,-1.));
#220=CARTESIAN_POINT('',(-10.8782752613704,-168.365370530796,-11.));
#221=CARTESIAN_POINT('Origin',(-10.7563632612178,-166.870332917818,-11.));
#222=CARTESIAN_POINT('',(-10.8782752613704,-168.365370530796,-1.));
#223=CARTESIAN_POINT('Origin',(-14.7347250516764,-168.365370530796,-1.));
#224=CARTESIAN_POINT('',(-14.7347250516764,-168.365370530796,-1.));
#225=CARTESIAN_POINT('',(-10.9731152874477,-168.365370530796,-1.));
#226=CARTESIAN_POINT('',(-14.7347250516764,-168.365370530796,-11.));
#227=CARTESIAN_POINT('',(-10.9731152874477,-168.365370530796,-11.));
#228=CARTESIAN_POINT('',(-14.7347250516764,-168.365370530796,-1.));
#229=CARTESIAN_POINT('Origin',(-10.7563632612178,-166.870332917818,-1.));
#230=CARTESIAN_POINT('',(-7.40010418589133,-169.477635167134,-1.));
#231=CARTESIAN_POINT('Origin',(-10.7563632612178,-166.870332917818,-1.));
#232=CARTESIAN_POINT('',(-7.40010418589133,-169.477635167134,-11.));
#233=CARTESIAN_POINT('Origin',(-10.7563632612178,-166.870332917818,-11.));
#234=CARTESIAN_POINT('',(-7.40010418589133,-169.477635167134,-1.));
#235=CARTESIAN_POINT('Origin',(-7.40010418589133,-164.263030668502,-1.));
#236=CARTESIAN_POINT('',(-7.40010418589133,-164.263030668502,-1.));
#237=CARTESIAN_POINT('',(-7.40010418589133,-168.723406379617,-1.));
#238=CARTESIAN_POINT('',(-7.40010418589133,-164.263030668502,-11.));
#239=CARTESIAN_POINT('',(-7.40010418589133,-168.723406379617,-11.));
#240=CARTESIAN_POINT('',(-7.40010418589133,-164.263030668502,-1.));
#241=CARTESIAN_POINT('Origin',(-10.7563632612178,-166.870332917818,-1.));
#242=CARTESIAN_POINT('',(-14.7347250516764,-165.37529530484,-1.));
#243=CARTESIAN_POINT('Origin',(-10.7563632612178,-166.870332917818,-1.));
#244=CARTESIAN_POINT('',(-14.7347250516764,-165.37529530484,-11.));
#245=CARTESIAN_POINT('Origin',(-10.7563632612178,-166.870332917818,-11.));
#246=CARTESIAN_POINT('',(-14.7347250516764,-165.37529530484,-1.));
#247=CARTESIAN_POINT('Origin',(-10.8782752613695,-165.37529530484,-1.));
#248=CARTESIAN_POINT('',(-12.7047531891024,-165.37529530484,-1.));
#249=CARTESIAN_POINT('',(-12.7047531891024,-165.37529530484,-11.));
#250=CARTESIAN_POINT('Origin',(-10.6386232131408,-166.870332917818,-11.));
#251=CARTESIAN_POINT('Origin',(-10.6386232131408,-166.870332917818,-1.));
#252=UNCERTAINTY_MEASURE_WITH_UNIT(LENGTH_MEASURE(0.01),#256,
'DISTANCE_ACCURACY_VALUE',
'Maximum model space distance between geometric entities at asserted c
onnectivities');
#253=UNCERTAINTY_MEASURE_WITH_UNIT(LENGTH_MEASURE(0.01),#256,
'DISTANCE_ACCURACY_VALUE',
'Maximum model space distance between geometric entities at asserted c
onnectivities');
#254=(
GEOMETRIC_REPRESENTATION_CONTEXT(3)
GLOBAL_UNCERTAINTY_ASSIGNED_CONTEXT((#252))
GLOBAL_UNIT_ASSIGNED_CONTEXT((#256,#258,#259))
REPRESENTATION_CONTEXT('','3D')
);
#255=(
GEOMETRIC_REPRESENTATION_CONTEXT(3)
GLOBAL_UNCERTAINTY_ASSIGNED_CONTEXT((#253))
GLOBAL_UNIT_ASSIGNED_CONTEXT((#256,#258,#259))
REPRESENTATION_CONTEXT('','3D')
);
#256=(
LENGTH_UNIT()
NAMED_UNIT(*)
SI_UNIT(.MILLI.,.METRE.)
);
#257=(
LENGTH_UNIT()
NAMED_UNIT(*)
SI_UNIT($,.METRE.)
);
#258=(
NAMED_UNIT(*)
PLANE_ANGLE_UNIT()
SI_UNIT($,.RADIAN.)
);
#259=(
NAMED_UNIT(*)
SI_UNIT($,.STERADIAN.)
SOLID_ANGLE_UNIT()
);
#260=SHAPE_DEFINITION_REPRESENTATION(#261,#262);
#261=PRODUCT_DEFINITION_SHAPE('',$,#264);
#262=SHAPE_REPRESENTATION('',(#156),#254);
#263=PRODUCT_DEFINITION_CONTEXT('part definition',#268,'design');
#264=PRODUCT_DEFINITION('Spacer','Spacer',#265,#263);
#265=PRODUCT_DEFINITION_FORMATION('',$,#270);
#266=PRODUCT_RELATED_PRODUCT_CATEGORY('Spacer','Spacer',(#270));
#267=APPLICATION_PROTOCOL_DEFINITION('international standard',
'automotive_design',2009,#268);
#268=APPLICATION_CONTEXT(
'Core Data for Automotive Mechanical Design Process');
#269=PRODUCT_CONTEXT('part definition',#268,'mechanical');
#270=PRODUCT('Spacer','Spacer',$,(#269));
#271=PRESENTATION_STYLE_ASSIGNMENT((#272));
#272=SURFACE_STYLE_USAGE(.BOTH.,#273);
#273=SURFACE_SIDE_STYLE('',(#274));
#274=SURFACE_STYLE_FILL_AREA(#275);
#275=FILL_AREA_STYLE('Acier - Satin\X\E9',(#276));
#276=FILL_AREA_STYLE_COLOUR('Acier - Satin\X\E9',#277);
#277=COLOUR_RGB('Acier - Satin\X\E9',0.627450980392157,0.627450980392157,
0.627450980392157);
ENDSEC;
END-ISO-10303-21;
