ISO-10303-21;
HEADER;
/* Generated by software containing ST-Developer
 * from STEP Tools, Inc. (www.steptools.com) 
 */

FILE_DESCRIPTION(
/* description */ ('',
'CAx-IF Rec.Pracs.---Representation and Presentation of Product Manufa
cturing Information (PMI)---4.0---2014-10-13'),
/* implementation_level */ '2;1');

FILE_NAME(
/* name */ 'Main_button_hypatia_cover.step',
/* time_stamp */ '2025-01-27T13:07:29+01:00',
/* author */ (''),
/* organization */ (''),
/* preprocessor_version */ 'ST-DEVELOPER v20',
/* originating_system */ 'Autodesk Translation Framework v13.20.0.188',

/* authorisation */ '');

FILE_SCHEMA (('AP242_MANAGED_MODEL_BASED_3D_ENGINEERING_MIM_LF { 1 0 10303 442 1 1 4 }'));
ENDSEC;

DATA;
#10=MECHANICAL_DESIGN_GEOMETRIC_PRESENTATION_REPRESENTATION('',(#13),#586);
#11=SHAPE_REPRESENTATION_RELATIONSHIP('SRR','None',#593,#12);
#12=ADVANCED_BREP_SHAPE_REPRESENTATION('',(#14),#585);
#13=STYLED_ITEM('',(#602),#14);
#14=MANIFOLD_SOLID_BREP('Corps1',#320);
#15=FACE_BOUND('',#87,.T.);
#16=FACE_BOUND('',#89,.T.);
#17=FACE_BOUND('',#90,.T.);
#18=FACE_BOUND('',#91,.T.);
#19=FACE_BOUND('',#92,.T.);
#20=FACE_BOUND('',#93,.T.);
#21=FACE_BOUND('',#94,.T.);
#22=FACE_BOUND('',#95,.T.);
#23=FACE_BOUND('',#96,.T.);
#24=FACE_BOUND('',#97,.T.);
#25=TOROIDAL_SURFACE('',#377,19.,1.);
#26=CONICAL_SURFACE('',#350,1.,0.785398163397448);
#27=CONICAL_SURFACE('',#356,0.999999999999999,0.785398163397448);
#28=CONICAL_SURFACE('',#362,1.,0.785398163397448);
#29=CONICAL_SURFACE('',#368,1.,0.785398163397448);
#30=PLANE('',#337);
#31=PLANE('',#341);
#32=PLANE('',#345);
#33=PLANE('',#349);
#34=PLANE('',#355);
#35=PLANE('',#361);
#36=PLANE('',#367);
#37=PLANE('',#373);
#38=PLANE('',#381);
#39=PLANE('',#382);
#40=FACE_OUTER_BOUND('',#64,.T.);
#41=FACE_OUTER_BOUND('',#65,.T.);
#42=FACE_OUTER_BOUND('',#66,.T.);
#43=FACE_OUTER_BOUND('',#67,.T.);
#44=FACE_OUTER_BOUND('',#68,.T.);
#45=FACE_OUTER_BOUND('',#69,.T.);
#46=FACE_OUTER_BOUND('',#70,.T.);
#47=FACE_OUTER_BOUND('',#71,.T.);
#48=FACE_OUTER_BOUND('',#72,.T.);
#49=FACE_OUTER_BOUND('',#73,.T.);
#50=FACE_OUTER_BOUND('',#74,.T.);
#51=FACE_OUTER_BOUND('',#75,.T.);
#52=FACE_OUTER_BOUND('',#76,.T.);
#53=FACE_OUTER_BOUND('',#77,.T.);
#54=FACE_OUTER_BOUND('',#78,.T.);
#55=FACE_OUTER_BOUND('',#79,.T.);
#56=FACE_OUTER_BOUND('',#80,.T.);
#57=FACE_OUTER_BOUND('',#81,.T.);
#58=FACE_OUTER_BOUND('',#82,.T.);
#59=FACE_OUTER_BOUND('',#83,.T.);
#60=FACE_OUTER_BOUND('',#84,.T.);
#61=FACE_OUTER_BOUND('',#85,.T.);
#62=FACE_OUTER_BOUND('',#86,.T.);
#63=FACE_OUTER_BOUND('',#88,.T.);
#64=EDGE_LOOP('',(#211,#212,#213,#214));
#65=EDGE_LOOP('',(#215));
#66=EDGE_LOOP('',(#216,#217,#218,#219));
#67=EDGE_LOOP('',(#220));
#68=EDGE_LOOP('',(#221,#222,#223,#224));
#69=EDGE_LOOP('',(#225));
#70=EDGE_LOOP('',(#226,#227,#228,#229));
#71=EDGE_LOOP('',(#230));
#72=EDGE_LOOP('',(#231,#232,#233,#234));
#73=EDGE_LOOP('',(#235,#236,#237,#238));
#74=EDGE_LOOP('',(#239));
#75=EDGE_LOOP('',(#240,#241,#242,#243));
#76=EDGE_LOOP('',(#244,#245,#246,#247));
#77=EDGE_LOOP('',(#248));
#78=EDGE_LOOP('',(#249,#250,#251,#252));
#79=EDGE_LOOP('',(#253,#254,#255,#256));
#80=EDGE_LOOP('',(#257));
#81=EDGE_LOOP('',(#258,#259,#260,#261));
#82=EDGE_LOOP('',(#262,#263,#264,#265));
#83=EDGE_LOOP('',(#266));
#84=EDGE_LOOP('',(#267,#268,#269,#270));
#85=EDGE_LOOP('',(#271,#272,#273,#274));
#86=EDGE_LOOP('',(#275));
#87=EDGE_LOOP('',(#276));
#88=EDGE_LOOP('',(#277));
#89=EDGE_LOOP('',(#278));
#90=EDGE_LOOP('',(#279));
#91=EDGE_LOOP('',(#280));
#92=EDGE_LOOP('',(#281));
#93=EDGE_LOOP('',(#282));
#94=EDGE_LOOP('',(#283));
#95=EDGE_LOOP('',(#284));
#96=EDGE_LOOP('',(#285));
#97=EDGE_LOOP('',(#286));
#98=LINE('',#501,#111);
#99=LINE('',#508,#112);
#100=LINE('',#515,#113);
#101=LINE('',#522,#114);
#102=LINE('',#529,#115);
#103=LINE('',#534,#116);
#104=LINE('',#540,#117);
#105=LINE('',#545,#118);
#106=LINE('',#551,#119);
#107=LINE('',#556,#120);
#108=LINE('',#562,#121);
#109=LINE('',#567,#122);
#110=LINE('',#573,#123);
#111=VECTOR('',#389,1.51179540810654);
#112=VECTOR('',#398,1.51179540810654);
#113=VECTOR('',#407,1.51179540810654);
#114=VECTOR('',#416,1.51179540810654);
#115=VECTOR('',#425,1.);
#116=VECTOR('',#432,1.5);
#117=VECTOR('',#439,0.999999999999999);
#118=VECTOR('',#446,1.5);
#119=VECTOR('',#453,1.);
#120=VECTOR('',#460,1.5);
#121=VECTOR('',#467,1.);
#122=VECTOR('',#474,1.5);
#123=VECTOR('',#481,8.12878566922359);
#124=CIRCLE('',#335,1.51179540810654);
#125=CIRCLE('',#336,1.51179540810654);
#126=CIRCLE('',#339,1.51179540810654);
#127=CIRCLE('',#340,1.51179540810654);
#128=CIRCLE('',#343,1.51179540810654);
#129=CIRCLE('',#344,1.51179540810654);
#130=CIRCLE('',#347,1.51179540810654);
#131=CIRCLE('',#348,1.51179540810654);
#132=CIRCLE('',#351,1.5);
#133=CIRCLE('',#352,0.499999999999999);
#134=CIRCLE('',#354,1.5);
#135=CIRCLE('',#357,1.5);
#136=CIRCLE('',#358,0.499999999999999);
#137=CIRCLE('',#360,1.5);
#138=CIRCLE('',#363,1.5);
#139=CIRCLE('',#364,0.5);
#140=CIRCLE('',#366,1.5);
#141=CIRCLE('',#369,1.5);
#142=CIRCLE('',#370,0.5);
#143=CIRCLE('',#372,1.5);
#144=CIRCLE('',#375,8.12878566922359);
#145=CIRCLE('',#376,8.12878566922359);
#146=CIRCLE('',#378,19.);
#147=CIRCLE('',#379,1.);
#148=CIRCLE('',#380,20.);
#149=VERTEX_POINT('',#498);
#150=VERTEX_POINT('',#500);
#151=VERTEX_POINT('',#505);
#152=VERTEX_POINT('',#507);
#153=VERTEX_POINT('',#512);
#154=VERTEX_POINT('',#514);
#155=VERTEX_POINT('',#519);
#156=VERTEX_POINT('',#521);
#157=VERTEX_POINT('',#526);
#158=VERTEX_POINT('',#528);
#159=VERTEX_POINT('',#532);
#160=VERTEX_POINT('',#537);
#161=VERTEX_POINT('',#539);
#162=VERTEX_POINT('',#543);
#163=VERTEX_POINT('',#548);
#164=VERTEX_POINT('',#550);
#165=VERTEX_POINT('',#554);
#166=VERTEX_POINT('',#559);
#167=VERTEX_POINT('',#561);
#168=VERTEX_POINT('',#565);
#169=VERTEX_POINT('',#570);
#170=VERTEX_POINT('',#572);
#171=VERTEX_POINT('',#576);
#172=VERTEX_POINT('',#578);
#173=EDGE_CURVE('',#149,#149,#124,.T.);
#174=EDGE_CURVE('',#149,#150,#98,.T.);
#175=EDGE_CURVE('',#150,#150,#125,.T.);
#176=EDGE_CURVE('',#151,#151,#126,.T.);
#177=EDGE_CURVE('',#151,#152,#99,.T.);
#178=EDGE_CURVE('',#152,#152,#127,.T.);
#179=EDGE_CURVE('',#153,#153,#128,.T.);
#180=EDGE_CURVE('',#153,#154,#100,.T.);
#181=EDGE_CURVE('',#154,#154,#129,.T.);
#182=EDGE_CURVE('',#155,#155,#130,.T.);
#183=EDGE_CURVE('',#155,#156,#101,.T.);
#184=EDGE_CURVE('',#156,#156,#131,.T.);
#185=EDGE_CURVE('',#157,#157,#132,.T.);
#186=EDGE_CURVE('',#157,#158,#102,.T.);
#187=EDGE_CURVE('',#158,#158,#133,.T.);
#188=EDGE_CURVE('',#159,#159,#134,.T.);
#189=EDGE_CURVE('',#159,#157,#103,.T.);
#190=EDGE_CURVE('',#160,#160,#135,.T.);
#191=EDGE_CURVE('',#160,#161,#104,.T.);
#192=EDGE_CURVE('',#161,#161,#136,.T.);
#193=EDGE_CURVE('',#162,#162,#137,.T.);
#194=EDGE_CURVE('',#162,#160,#105,.T.);
#195=EDGE_CURVE('',#163,#163,#138,.T.);
#196=EDGE_CURVE('',#163,#164,#106,.T.);
#197=EDGE_CURVE('',#164,#164,#139,.T.);
#198=EDGE_CURVE('',#165,#165,#140,.T.);
#199=EDGE_CURVE('',#165,#163,#107,.T.);
#200=EDGE_CURVE('',#166,#166,#141,.T.);
#201=EDGE_CURVE('',#166,#167,#108,.T.);
#202=EDGE_CURVE('',#167,#167,#142,.T.);
#203=EDGE_CURVE('',#168,#168,#143,.T.);
#204=EDGE_CURVE('',#168,#166,#109,.T.);
#205=EDGE_CURVE('',#169,#169,#144,.T.);
#206=EDGE_CURVE('',#169,#170,#110,.T.);
#207=EDGE_CURVE('',#170,#170,#145,.T.);
#208=EDGE_CURVE('',#171,#171,#146,.T.);
#209=EDGE_CURVE('',#171,#172,#147,.T.);
#210=EDGE_CURVE('',#172,#172,#148,.T.);
#211=ORIENTED_EDGE('',*,*,#173,.F.);
#212=ORIENTED_EDGE('',*,*,#174,.T.);
#213=ORIENTED_EDGE('',*,*,#175,.T.);
#214=ORIENTED_EDGE('',*,*,#174,.F.);
#215=ORIENTED_EDGE('',*,*,#175,.F.);
#216=ORIENTED_EDGE('',*,*,#176,.F.);
#217=ORIENTED_EDGE('',*,*,#177,.T.);
#218=ORIENTED_EDGE('',*,*,#178,.T.);
#219=ORIENTED_EDGE('',*,*,#177,.F.);
#220=ORIENTED_EDGE('',*,*,#178,.F.);
#221=ORIENTED_EDGE('',*,*,#179,.F.);
#222=ORIENTED_EDGE('',*,*,#180,.T.);
#223=ORIENTED_EDGE('',*,*,#181,.T.);
#224=ORIENTED_EDGE('',*,*,#180,.F.);
#225=ORIENTED_EDGE('',*,*,#181,.F.);
#226=ORIENTED_EDGE('',*,*,#182,.F.);
#227=ORIENTED_EDGE('',*,*,#183,.T.);
#228=ORIENTED_EDGE('',*,*,#184,.T.);
#229=ORIENTED_EDGE('',*,*,#183,.F.);
#230=ORIENTED_EDGE('',*,*,#184,.F.);
#231=ORIENTED_EDGE('',*,*,#185,.T.);
#232=ORIENTED_EDGE('',*,*,#186,.T.);
#233=ORIENTED_EDGE('',*,*,#187,.T.);
#234=ORIENTED_EDGE('',*,*,#186,.F.);
#235=ORIENTED_EDGE('',*,*,#188,.F.);
#236=ORIENTED_EDGE('',*,*,#189,.T.);
#237=ORIENTED_EDGE('',*,*,#185,.F.);
#238=ORIENTED_EDGE('',*,*,#189,.F.);
#239=ORIENTED_EDGE('',*,*,#187,.F.);
#240=ORIENTED_EDGE('',*,*,#190,.T.);
#241=ORIENTED_EDGE('',*,*,#191,.T.);
#242=ORIENTED_EDGE('',*,*,#192,.T.);
#243=ORIENTED_EDGE('',*,*,#191,.F.);
#244=ORIENTED_EDGE('',*,*,#193,.F.);
#245=ORIENTED_EDGE('',*,*,#194,.T.);
#246=ORIENTED_EDGE('',*,*,#190,.F.);
#247=ORIENTED_EDGE('',*,*,#194,.F.);
#248=ORIENTED_EDGE('',*,*,#192,.F.);
#249=ORIENTED_EDGE('',*,*,#195,.T.);
#250=ORIENTED_EDGE('',*,*,#196,.T.);
#251=ORIENTED_EDGE('',*,*,#197,.T.);
#252=ORIENTED_EDGE('',*,*,#196,.F.);
#253=ORIENTED_EDGE('',*,*,#198,.F.);
#254=ORIENTED_EDGE('',*,*,#199,.T.);
#255=ORIENTED_EDGE('',*,*,#195,.F.);
#256=ORIENTED_EDGE('',*,*,#199,.F.);
#257=ORIENTED_EDGE('',*,*,#197,.F.);
#258=ORIENTED_EDGE('',*,*,#200,.T.);
#259=ORIENTED_EDGE('',*,*,#201,.T.);
#260=ORIENTED_EDGE('',*,*,#202,.T.);
#261=ORIENTED_EDGE('',*,*,#201,.F.);
#262=ORIENTED_EDGE('',*,*,#203,.F.);
#263=ORIENTED_EDGE('',*,*,#204,.T.);
#264=ORIENTED_EDGE('',*,*,#200,.F.);
#265=ORIENTED_EDGE('',*,*,#204,.F.);
#266=ORIENTED_EDGE('',*,*,#202,.F.);
#267=ORIENTED_EDGE('',*,*,#205,.F.);
#268=ORIENTED_EDGE('',*,*,#206,.T.);
#269=ORIENTED_EDGE('',*,*,#207,.F.);
#270=ORIENTED_EDGE('',*,*,#206,.F.);
#271=ORIENTED_EDGE('',*,*,#208,.T.);
#272=ORIENTED_EDGE('',*,*,#209,.T.);
#273=ORIENTED_EDGE('',*,*,#210,.T.);
#274=ORIENTED_EDGE('',*,*,#209,.F.);
#275=ORIENTED_EDGE('',*,*,#208,.F.);
#276=ORIENTED_EDGE('',*,*,#205,.T.);
#277=ORIENTED_EDGE('',*,*,#210,.F.);
#278=ORIENTED_EDGE('',*,*,#173,.T.);
#279=ORIENTED_EDGE('',*,*,#176,.T.);
#280=ORIENTED_EDGE('',*,*,#179,.T.);
#281=ORIENTED_EDGE('',*,*,#182,.T.);
#282=ORIENTED_EDGE('',*,*,#207,.T.);
#283=ORIENTED_EDGE('',*,*,#188,.T.);
#284=ORIENTED_EDGE('',*,*,#203,.T.);
#285=ORIENTED_EDGE('',*,*,#193,.T.);
#286=ORIENTED_EDGE('',*,*,#198,.T.);
#287=CYLINDRICAL_SURFACE('',#334,1.51179540810654);
#288=CYLINDRICAL_SURFACE('',#338,1.51179540810654);
#289=CYLINDRICAL_SURFACE('',#342,1.51179540810654);
#290=CYLINDRICAL_SURFACE('',#346,1.51179540810654);
#291=CYLINDRICAL_SURFACE('',#353,1.5);
#292=CYLINDRICAL_SURFACE('',#359,1.5);
#293=CYLINDRICAL_SURFACE('',#365,1.5);
#294=CYLINDRICAL_SURFACE('',#371,1.5);
#295=CYLINDRICAL_SURFACE('',#374,8.12878566922359);
#296=ADVANCED_FACE('',(#40),#287,.F.);
#297=ADVANCED_FACE('',(#41),#30,.T.);
#298=ADVANCED_FACE('',(#42),#288,.F.);
#299=ADVANCED_FACE('',(#43),#31,.T.);
#300=ADVANCED_FACE('',(#44),#289,.F.);
#301=ADVANCED_FACE('',(#45),#32,.T.);
#302=ADVANCED_FACE('',(#46),#290,.F.);
#303=ADVANCED_FACE('',(#47),#33,.T.);
#304=ADVANCED_FACE('',(#48),#26,.T.);
#305=ADVANCED_FACE('',(#49),#291,.T.);
#306=ADVANCED_FACE('',(#50),#34,.F.);
#307=ADVANCED_FACE('',(#51),#27,.T.);
#308=ADVANCED_FACE('',(#52),#292,.T.);
#309=ADVANCED_FACE('',(#53),#35,.F.);
#310=ADVANCED_FACE('',(#54),#28,.T.);
#311=ADVANCED_FACE('',(#55),#293,.T.);
#312=ADVANCED_FACE('',(#56),#36,.F.);
#313=ADVANCED_FACE('',(#57),#29,.T.);
#314=ADVANCED_FACE('',(#58),#294,.T.);
#315=ADVANCED_FACE('',(#59),#37,.F.);
#316=ADVANCED_FACE('',(#60),#295,.F.);
#317=ADVANCED_FACE('',(#61),#25,.T.);
#318=ADVANCED_FACE('',(#62,#15),#38,.T.);
#319=ADVANCED_FACE('',(#63,#16,#17,#18,#19,#20,#21,#22,#23,#24),#39,.F.);
#320=CLOSED_SHELL('',(#296,#297,#298,#299,#300,#301,#302,#303,#304,#305,
#306,#307,#308,#309,#310,#311,#312,#313,#314,#315,#316,#317,#318,#319));
#321=DERIVED_UNIT_ELEMENT(#323,1.);
#322=DERIVED_UNIT_ELEMENT(#588,-3.);
#323=(
MASS_UNIT()
NAMED_UNIT(*)
SI_UNIT(.KILO.,.GRAM.)
);
#324=DERIVED_UNIT((#321,#322));
#325=MEASURE_REPRESENTATION_ITEM('density measure',
POSITIVE_RATIO_MEASURE(7850.),#324);
#326=PROPERTY_DEFINITION_REPRESENTATION(#331,#328);
#327=PROPERTY_DEFINITION_REPRESENTATION(#332,#329);
#328=REPRESENTATION('material name',(#330),#585);
#329=REPRESENTATION('density',(#325),#585);
#330=DESCRIPTIVE_REPRESENTATION_ITEM('Acier','Acier');
#331=PROPERTY_DEFINITION('material property','material name',#595);
#332=PROPERTY_DEFINITION('material property','density of part',#595);
#333=AXIS2_PLACEMENT_3D('',#496,#383,#384);
#334=AXIS2_PLACEMENT_3D('',#497,#385,#386);
#335=AXIS2_PLACEMENT_3D('',#499,#387,#388);
#336=AXIS2_PLACEMENT_3D('',#502,#390,#391);
#337=AXIS2_PLACEMENT_3D('',#503,#392,#393);
#338=AXIS2_PLACEMENT_3D('',#504,#394,#395);
#339=AXIS2_PLACEMENT_3D('',#506,#396,#397);
#340=AXIS2_PLACEMENT_3D('',#509,#399,#400);
#341=AXIS2_PLACEMENT_3D('',#510,#401,#402);
#342=AXIS2_PLACEMENT_3D('',#511,#403,#404);
#343=AXIS2_PLACEMENT_3D('',#513,#405,#406);
#344=AXIS2_PLACEMENT_3D('',#516,#408,#409);
#345=AXIS2_PLACEMENT_3D('',#517,#410,#411);
#346=AXIS2_PLACEMENT_3D('',#518,#412,#413);
#347=AXIS2_PLACEMENT_3D('',#520,#414,#415);
#348=AXIS2_PLACEMENT_3D('',#523,#417,#418);
#349=AXIS2_PLACEMENT_3D('',#524,#419,#420);
#350=AXIS2_PLACEMENT_3D('',#525,#421,#422);
#351=AXIS2_PLACEMENT_3D('',#527,#423,#424);
#352=AXIS2_PLACEMENT_3D('',#530,#426,#427);
#353=AXIS2_PLACEMENT_3D('',#531,#428,#429);
#354=AXIS2_PLACEMENT_3D('',#533,#430,#431);
#355=AXIS2_PLACEMENT_3D('',#535,#433,#434);
#356=AXIS2_PLACEMENT_3D('',#536,#435,#436);
#357=AXIS2_PLACEMENT_3D('',#538,#437,#438);
#358=AXIS2_PLACEMENT_3D('',#541,#440,#441);
#359=AXIS2_PLACEMENT_3D('',#542,#442,#443);
#360=AXIS2_PLACEMENT_3D('',#544,#444,#445);
#361=AXIS2_PLACEMENT_3D('',#546,#447,#448);
#362=AXIS2_PLACEMENT_3D('',#547,#449,#450);
#363=AXIS2_PLACEMENT_3D('',#549,#451,#452);
#364=AXIS2_PLACEMENT_3D('',#552,#454,#455);
#365=AXIS2_PLACEMENT_3D('',#553,#456,#457);
#366=AXIS2_PLACEMENT_3D('',#555,#458,#459);
#367=AXIS2_PLACEMENT_3D('',#557,#461,#462);
#368=AXIS2_PLACEMENT_3D('',#558,#463,#464);
#369=AXIS2_PLACEMENT_3D('',#560,#465,#466);
#370=AXIS2_PLACEMENT_3D('',#563,#468,#469);
#371=AXIS2_PLACEMENT_3D('',#564,#470,#471);
#372=AXIS2_PLACEMENT_3D('',#566,#472,#473);
#373=AXIS2_PLACEMENT_3D('',#568,#475,#476);
#374=AXIS2_PLACEMENT_3D('',#569,#477,#478);
#375=AXIS2_PLACEMENT_3D('',#571,#479,#480);
#376=AXIS2_PLACEMENT_3D('',#574,#482,#483);
#377=AXIS2_PLACEMENT_3D('',#575,#484,#485);
#378=AXIS2_PLACEMENT_3D('',#577,#486,#487);
#379=AXIS2_PLACEMENT_3D('',#579,#488,#489);
#380=AXIS2_PLACEMENT_3D('',#580,#490,#491);
#381=AXIS2_PLACEMENT_3D('',#581,#492,#493);
#382=AXIS2_PLACEMENT_3D('',#582,#494,#495);
#383=DIRECTION('axis',(0.,0.,1.));
#384=DIRECTION('refdir',(1.,0.,0.));
#385=DIRECTION('center_axis',(0.,-1.,0.));
#386=DIRECTION('ref_axis',(-1.,0.,0.));
#387=DIRECTION('center_axis',(0.,-1.,0.));
#388=DIRECTION('ref_axis',(-1.,0.,0.));
#389=DIRECTION('',(0.,-1.,0.));
#390=DIRECTION('center_axis',(0.,-1.,0.));
#391=DIRECTION('ref_axis',(-1.,0.,0.));
#392=DIRECTION('center_axis',(0.,1.,0.));
#393=DIRECTION('ref_axis',(-1.,0.,0.));
#394=DIRECTION('center_axis',(0.,-1.,0.));
#395=DIRECTION('ref_axis',(-1.,0.,0.));
#396=DIRECTION('center_axis',(0.,-1.,0.));
#397=DIRECTION('ref_axis',(-1.,0.,0.));
#398=DIRECTION('',(0.,-1.,0.));
#399=DIRECTION('center_axis',(0.,-1.,0.));
#400=DIRECTION('ref_axis',(-1.,0.,0.));
#401=DIRECTION('center_axis',(0.,1.,0.));
#402=DIRECTION('ref_axis',(-1.,0.,0.));
#403=DIRECTION('center_axis',(0.,-1.,0.));
#404=DIRECTION('ref_axis',(-1.,0.,0.));
#405=DIRECTION('center_axis',(0.,-1.,0.));
#406=DIRECTION('ref_axis',(-1.,0.,0.));
#407=DIRECTION('',(0.,-1.,0.));
#408=DIRECTION('center_axis',(0.,-1.,0.));
#409=DIRECTION('ref_axis',(-1.,0.,0.));
#410=DIRECTION('center_axis',(0.,1.,0.));
#411=DIRECTION('ref_axis',(-1.,0.,0.));
#412=DIRECTION('center_axis',(0.,-1.,0.));
#413=DIRECTION('ref_axis',(-1.,0.,0.));
#414=DIRECTION('center_axis',(0.,-1.,0.));
#415=DIRECTION('ref_axis',(-1.,0.,0.));
#416=DIRECTION('',(0.,-1.,0.));
#417=DIRECTION('center_axis',(0.,-1.,0.));
#418=DIRECTION('ref_axis',(-1.,0.,0.));
#419=DIRECTION('center_axis',(0.,1.,0.));
#420=DIRECTION('ref_axis',(-1.,0.,0.));
#421=DIRECTION('center_axis',(0.,-1.,0.));
#422=DIRECTION('ref_axis',(1.,0.,0.));
#423=DIRECTION('center_axis',(0.,1.,0.));
#424=DIRECTION('ref_axis',(1.,0.,0.));
#425=DIRECTION('',(0.707106781186548,0.707106781186548,8.65956056235493E-17));
#426=DIRECTION('center_axis',(0.,-1.,0.));
#427=DIRECTION('ref_axis',(1.,0.,0.));
#428=DIRECTION('center_axis',(0.,-1.,0.));
#429=DIRECTION('ref_axis',(1.,0.,0.));
#430=DIRECTION('center_axis',(0.,-1.,0.));
#431=DIRECTION('ref_axis',(1.,0.,0.));
#432=DIRECTION('',(0.,1.,0.));
#433=DIRECTION('center_axis',(0.,-1.,0.));
#434=DIRECTION('ref_axis',(1.,0.,0.));
#435=DIRECTION('center_axis',(0.,-1.,0.));
#436=DIRECTION('ref_axis',(1.,0.,0.));
#437=DIRECTION('center_axis',(0.,1.,0.));
#438=DIRECTION('ref_axis',(1.,0.,0.));
#439=DIRECTION('',(0.707106781186547,0.707106781186548,8.65956056235493E-17));
#440=DIRECTION('center_axis',(0.,-1.,0.));
#441=DIRECTION('ref_axis',(1.,0.,0.));
#442=DIRECTION('center_axis',(0.,-1.,0.));
#443=DIRECTION('ref_axis',(1.,0.,0.));
#444=DIRECTION('center_axis',(0.,-1.,0.));
#445=DIRECTION('ref_axis',(1.,0.,0.));
#446=DIRECTION('',(0.,1.,0.));
#447=DIRECTION('center_axis',(0.,-1.,0.));
#448=DIRECTION('ref_axis',(1.,0.,0.));
#449=DIRECTION('center_axis',(0.,-1.,0.));
#450=DIRECTION('ref_axis',(1.,0.,0.));
#451=DIRECTION('center_axis',(0.,1.,0.));
#452=DIRECTION('ref_axis',(1.,0.,0.));
#453=DIRECTION('',(0.707106781186547,0.707106781186547,8.65956056235493E-17));
#454=DIRECTION('center_axis',(0.,-1.,0.));
#455=DIRECTION('ref_axis',(1.,0.,0.));
#456=DIRECTION('center_axis',(0.,-1.,0.));
#457=DIRECTION('ref_axis',(1.,0.,0.));
#458=DIRECTION('center_axis',(0.,-1.,0.));
#459=DIRECTION('ref_axis',(1.,0.,0.));
#460=DIRECTION('',(0.,1.,0.));
#461=DIRECTION('center_axis',(0.,-1.,0.));
#462=DIRECTION('ref_axis',(1.,0.,0.));
#463=DIRECTION('center_axis',(0.,-1.,0.));
#464=DIRECTION('ref_axis',(1.,0.,0.));
#465=DIRECTION('center_axis',(0.,1.,0.));
#466=DIRECTION('ref_axis',(1.,0.,0.));
#467=DIRECTION('',(0.707106781186547,0.707106781186548,8.65956056235493E-17));
#468=DIRECTION('center_axis',(0.,-1.,0.));
#469=DIRECTION('ref_axis',(1.,0.,0.));
#470=DIRECTION('center_axis',(0.,-1.,0.));
#471=DIRECTION('ref_axis',(1.,0.,0.));
#472=DIRECTION('center_axis',(0.,-1.,0.));
#473=DIRECTION('ref_axis',(1.,0.,0.));
#474=DIRECTION('',(0.,1.,0.));
#475=DIRECTION('center_axis',(0.,-1.,0.));
#476=DIRECTION('ref_axis',(1.,0.,0.));
#477=DIRECTION('center_axis',(0.,1.,0.));
#478=DIRECTION('ref_axis',(1.,0.,0.));
#479=DIRECTION('center_axis',(0.,1.,0.));
#480=DIRECTION('ref_axis',(1.,0.,0.));
#481=DIRECTION('',(0.,1.,0.));
#482=DIRECTION('center_axis',(0.,-1.,0.));
#483=DIRECTION('ref_axis',(1.,0.,0.));
#484=DIRECTION('center_axis',(0.,-1.,0.));
#485=DIRECTION('ref_axis',(0.,0.,-1.));
#486=DIRECTION('center_axis',(0.,1.,0.));
#487=DIRECTION('ref_axis',(1.,0.,0.));
#488=DIRECTION('center_axis',(-1.,0.,-1.22464679914735E-16));
#489=DIRECTION('ref_axis',(-1.22464679914735E-16,0.,1.));
#490=DIRECTION('center_axis',(0.,-1.,0.));
#491=DIRECTION('ref_axis',(1.,0.,0.));
#492=DIRECTION('center_axis',(0.,-1.,0.));
#493=DIRECTION('ref_axis',(1.,0.,0.));
#494=DIRECTION('center_axis',(0.,-1.,0.));
#495=DIRECTION('ref_axis',(1.,0.,0.));
#496=CARTESIAN_POINT('',(0.,0.,0.));
#497=CARTESIAN_POINT('Origin',(9.75749999999999,-30.,-5.23836250056246E-13));
#498=CARTESIAN_POINT('',(11.2692954081065,-30.,-5.24021391596996E-13));
#499=CARTESIAN_POINT('Origin',(9.75749999999999,-30.,-5.23836250056246E-13));
#500=CARTESIAN_POINT('',(11.2692954081065,-30.75,-5.24021391596996E-13));
#501=CARTESIAN_POINT('',(11.2692954081065,-30.,-5.23651108515496E-13));
#502=CARTESIAN_POINT('Origin',(9.75749999999999,-30.75,-5.23836250056246E-13));
#503=CARTESIAN_POINT('Origin',(0.,-30.75,0.));
#504=CARTESIAN_POINT('Origin',(-5.24807901174534E-13,-30.,-9.75749999999999));
#505=CARTESIAN_POINT('',(1.51179540810602,-30.,-9.75749999999999));
#506=CARTESIAN_POINT('Origin',(-5.24807901174534E-13,-30.,-9.75749999999999));
#507=CARTESIAN_POINT('',(1.51179540810602,-30.75,-9.75749999999999));
#508=CARTESIAN_POINT('',(1.51179540810602,-30.,-9.75749999999999));
#509=CARTESIAN_POINT('Origin',(-5.24807901174534E-13,-30.75,-9.75749999999999));
#510=CARTESIAN_POINT('Origin',(0.,-30.75,0.));
#511=CARTESIAN_POINT('Origin',(-9.75749999999999,-30.,5.23836250056246E-13));
#512=CARTESIAN_POINT('',(-8.24570459189345,-30.,5.23651108515496E-13));
#513=CARTESIAN_POINT('Origin',(-9.75749999999999,-30.,5.23836250056246E-13));
#514=CARTESIAN_POINT('',(-8.24570459189345,-30.75,5.23651108515496E-13));
#515=CARTESIAN_POINT('',(-8.24570459189345,-30.,5.24021391596996E-13));
#516=CARTESIAN_POINT('Origin',(-9.75749999999999,-30.75,5.23836250056246E-13));
#517=CARTESIAN_POINT('Origin',(0.,-30.75,0.));
#518=CARTESIAN_POINT('Origin',(5.26002850288802E-13,-30.,9.75749999999999));
#519=CARTESIAN_POINT('',(1.51179540810707,-30.,9.75749999999999));
#520=CARTESIAN_POINT('Origin',(5.26002850288802E-13,-30.,9.75749999999999));
#521=CARTESIAN_POINT('',(1.51179540810707,-30.75,9.75749999999999));
#522=CARTESIAN_POINT('',(1.51179540810707,-30.,9.75749999999999));
#523=CARTESIAN_POINT('Origin',(5.26002850288802E-13,-30.75,9.75749999999999));
#524=CARTESIAN_POINT('Origin',(0.,-30.75,0.));
#525=CARTESIAN_POINT('Origin',(9.68121571213127,-27.5,-10.0078824999639));
#526=CARTESIAN_POINT('',(8.18121571213127,-28.,-10.0078824999639));
#527=CARTESIAN_POINT('Origin',(9.68121571213127,-28.,-10.0078824999639));
#528=CARTESIAN_POINT('',(9.18121571213127,-27.,-10.0078824999639));
#529=CARTESIAN_POINT('',(8.68121571213127,-27.5,-10.0078824999639));
#530=CARTESIAN_POINT('Origin',(9.68121571213127,-27.,-10.0078824999639));
#531=CARTESIAN_POINT('Origin',(9.68121571213127,-27.,-10.0078824999639));
#532=CARTESIAN_POINT('',(8.18121571213127,-30.,-10.0078824999639));
#533=CARTESIAN_POINT('Origin',(9.68121571213127,-30.,-10.0078824999639));
#534=CARTESIAN_POINT('',(8.18121571213127,-27.,-10.0078824999639));
#535=CARTESIAN_POINT('Origin',(0.,-27.,0.));
#536=CARTESIAN_POINT('Origin',(-10.0078824999639,-27.5,-9.68121571213127));
#537=CARTESIAN_POINT('',(-11.5078824999639,-28.,-9.68121571213127));
#538=CARTESIAN_POINT('Origin',(-10.0078824999639,-28.,-9.68121571213127));
#539=CARTESIAN_POINT('',(-10.5078824999639,-27.,-9.68121571213127));
#540=CARTESIAN_POINT('',(-11.0078824999639,-27.5,-9.68121571213127));
#541=CARTESIAN_POINT('Origin',(-10.0078824999639,-27.,-9.68121571213127));
#542=CARTESIAN_POINT('Origin',(-10.0078824999639,-27.,-9.68121571213127));
#543=CARTESIAN_POINT('',(-11.5078824999639,-30.,-9.68121571213127));
#544=CARTESIAN_POINT('Origin',(-10.0078824999639,-30.,-9.68121571213127));
#545=CARTESIAN_POINT('',(-11.5078824999639,-27.,-9.68121571213127));
#546=CARTESIAN_POINT('Origin',(0.,-27.,0.));
#547=CARTESIAN_POINT('Origin',(10.0078824999639,-27.5,9.68121571213127));
#548=CARTESIAN_POINT('',(8.50788249996392,-28.,9.68121571213127));
#549=CARTESIAN_POINT('Origin',(10.0078824999639,-28.,9.68121571213127));
#550=CARTESIAN_POINT('',(9.50788249996392,-27.,9.68121571213127));
#551=CARTESIAN_POINT('',(9.00788249996392,-27.5,9.68121571213127));
#552=CARTESIAN_POINT('Origin',(10.0078824999639,-27.,9.68121571213127));
#553=CARTESIAN_POINT('Origin',(10.0078824999639,-27.,9.68121571213127));
#554=CARTESIAN_POINT('',(8.50788249996392,-30.,9.68121571213127));
#555=CARTESIAN_POINT('Origin',(10.0078824999639,-30.,9.68121571213127));
#556=CARTESIAN_POINT('',(8.50788249996392,-27.,9.68121571213127));
#557=CARTESIAN_POINT('Origin',(0.,-27.,0.));
#558=CARTESIAN_POINT('Origin',(-9.68121571213127,-27.5,10.0078824999639));
#559=CARTESIAN_POINT('',(-11.1812157121313,-28.,10.0078824999639));
#560=CARTESIAN_POINT('Origin',(-9.68121571213127,-28.,10.0078824999639));
#561=CARTESIAN_POINT('',(-10.1812157121313,-27.,10.0078824999639));
#562=CARTESIAN_POINT('',(-10.6812157121313,-27.5,10.0078824999639));
#563=CARTESIAN_POINT('Origin',(-9.68121571213127,-27.,10.0078824999639));
#564=CARTESIAN_POINT('Origin',(-9.68121571213127,-27.,10.0078824999639));
#565=CARTESIAN_POINT('',(-11.1812157121313,-30.,10.0078824999639));
#566=CARTESIAN_POINT('Origin',(-9.68121571213127,-30.,10.0078824999639));
#567=CARTESIAN_POINT('',(-11.1812157121313,-27.,10.0078824999639));
#568=CARTESIAN_POINT('Origin',(0.,-27.,0.));
#569=CARTESIAN_POINT('Origin',(0.,-31.,0.));
#570=CARTESIAN_POINT('',(-8.12878566922359,-31.,-9.95489135076954E-16));
#571=CARTESIAN_POINT('Origin',(0.,-31.,0.));
#572=CARTESIAN_POINT('',(-8.12878566922359,-30.,-9.95489135076954E-16));
#573=CARTESIAN_POINT('',(-8.12878566922359,-31.,9.95489135076954E-16));
#574=CARTESIAN_POINT('Origin',(0.,-30.,0.));
#575=CARTESIAN_POINT('Origin',(0.,-30.,0.));
#576=CARTESIAN_POINT('',(-2.32682891837997E-15,-31.,19.));
#577=CARTESIAN_POINT('Origin',(0.,-31.,0.));
#578=CARTESIAN_POINT('',(-2.44929359829471E-15,-30.,20.));
#579=CARTESIAN_POINT('Origin',(-2.32682891837997E-15,-30.,19.));
#580=CARTESIAN_POINT('Origin',(0.,-30.,0.));
#581=CARTESIAN_POINT('Origin',(0.,-31.,0.));
#582=CARTESIAN_POINT('Origin',(0.,-30.,0.));
#583=UNCERTAINTY_MEASURE_WITH_UNIT(LENGTH_MEASURE(0.01),#587,
'DISTANCE_ACCURACY_VALUE',
'Maximum model space distance between geometric entities at asserted c
onnectivities');
#584=UNCERTAINTY_MEASURE_WITH_UNIT(LENGTH_MEASURE(0.01),#587,
'DISTANCE_ACCURACY_VALUE',
'Maximum model space distance between geometric entities at asserted c
onnectivities');
#585=(
GEOMETRIC_REPRESENTATION_CONTEXT(3)
GLOBAL_UNCERTAINTY_ASSIGNED_CONTEXT((#583))
GLOBAL_UNIT_ASSIGNED_CONTEXT((#587,#589,#590))
REPRESENTATION_CONTEXT('','3D')
);
#586=(
GEOMETRIC_REPRESENTATION_CONTEXT(3)
GLOBAL_UNCERTAINTY_ASSIGNED_CONTEXT((#584))
GLOBAL_UNIT_ASSIGNED_CONTEXT((#587,#589,#590))
REPRESENTATION_CONTEXT('','3D')
);
#587=(
LENGTH_UNIT()
NAMED_UNIT(*)
SI_UNIT(.MILLI.,.METRE.)
);
#588=(
LENGTH_UNIT()
NAMED_UNIT(*)
SI_UNIT($,.METRE.)
);
#589=(
NAMED_UNIT(*)
PLANE_ANGLE_UNIT()
SI_UNIT($,.RADIAN.)
);
#590=(
NAMED_UNIT(*)
SI_UNIT($,.STERADIAN.)
SOLID_ANGLE_UNIT()
);
#591=SHAPE_DEFINITION_REPRESENTATION(#592,#593);
#592=PRODUCT_DEFINITION_SHAPE('',$,#595);
#593=SHAPE_REPRESENTATION('',(#333),#585);
#594=PRODUCT_DEFINITION_CONTEXT('part definition',#599,'design');
#595=PRODUCT_DEFINITION('FusionComponent','FusionComponent',#596,#594);
#596=PRODUCT_DEFINITION_FORMATION('',$,#601);
#597=PRODUCT_RELATED_PRODUCT_CATEGORY('FusionComponent',
'FusionComponent',(#601));
#598=APPLICATION_PROTOCOL_DEFINITION('international standard',
'ap242_managed_model_based_3d_engineering',2011,#599);
#599=APPLICATION_CONTEXT('Managed model based 3d engineering');
#600=PRODUCT_CONTEXT('part definition',#599,'mechanical');
#601=PRODUCT('FusionComponent','FusionComponent',$,(#600));
#602=PRESENTATION_STYLE_ASSIGNMENT((#603));
#603=SURFACE_STYLE_USAGE(.BOTH.,#604);
#604=SURFACE_SIDE_STYLE('',(#605));
#605=SURFACE_STYLE_FILL_AREA(#606);
#606=FILL_AREA_STYLE('Acier - Satin\X\E9',(#607));
#607=FILL_AREA_STYLE_COLOUR('Acier - Satin\X\E9',#608);
#608=COLOUR_RGB('Acier - Satin\X\E9',0.627450980392157,0.627450980392157,
0.627450980392157);
ENDSEC;
END-ISO-10303-21;
